  0
SECTION
  2
HEADER
  9
$ACADVER
  1
AC1015
  9
$ACADMAINTVER
 70
     6
  9
$DWGCODEPAGE
  3
ANSI_1254
  9
$INSBASE
 10
0.0
 20
0.0
 30
0.0
  9
$EXTMIN
 10
0.0
 20
0.0
 30
0.0
  9
$EXTMAX
 10
279.4
 20
215.9
 30
0.0
  9
$LIMMIN
 10
0.0
 20
0.0
  9
$LIMMAX
 10
279.4
 20
215.9
  9
$ORTHOMODE
 70
     0
  9
$REGENMODE
 70
     1
  9
$FILLMODE
 70
     1
  9
$QTEXTMODE
 70
     0
  9
$MIRRTEXT
 70
     1
  9
$LTSCALE
 40
1.0
  9
$ATTMODE
 70
     1
  9
$TEXTSIZE
 40
3.5
  9
$TRACEWID
 40
1.0
  9
$TEXTSTYLE
  7
Standard
  9
$CLAYER
  8
0
  9
$CELTYPE
  6
ByLayer
  9
$CECOLOR
 62
   256
  9
$CELTSCALE
 40
1.0
  9
$DISPSILH
 70
     0
  9
$DIMSCALE
 40
1.0
  9
$DIMASZ
 40
3.5
  9
$DIMEXO
 40
1.0
  9
$DIMDLI
 40
3.75
  9
$DIMRND
 40
0.0
  9
$DIMDLE
 40
0.0
  9
$DIMEXE
 40
1.0
  9
$DIMTP
 40
0.0
  9
$DIMTM
 40
0.0
  9
$DIMTXT
 40
3.5
  9
$DIMCEN
 40
2.5
  9
$DIMTSZ
 40
0.0
  9
$DIMTOL
 70
     0
  9
$DIMLIM
 70
     0
  9
$DIMTIH
 70
     1
  9
$DIMTOH
 70
     1
  9
$DIMSE1
 70
     0
  9
$DIMSE2
 70
     0
  9
$DIMTAD
 70
     1
  9
$DIMZIN
 70
     0
  9
$DIMBLK
  1

  9
$DIMASO
 70
     1
  9
$DIMSHO
 70
     1
  9
$DIMPOST
  1

  9
$DIMAPOST
  1

  9
$DIMALT
 70
     0
  9
$DIMALTD
 70
     3
  9
$DIMALTF
 40
0.0393700787
  9
$DIMLFAC
 40
1.0
  9
$DIMTOFL
 70
     1
  9
$DIMTVP
 40
0.0
  9
$DIMTIX
 70
     0
  9
$DIMSOXD
 70
     0
  9
$DIMSAH
 70
     0
  9
$DIMBLK1
  1

  9
$DIMBLK2
  1

  9
$DIMSTYLE
  2
ISO-25
  9
$DIMCLRD
 70
     0
  9
$DIMCLRE
 70
     0
  9
$DIMCLRT
 70
     0
  9
$DIMTFAC
 40
1.0
  9
$DIMGAP
 40
1.524
  9
$DIMJUST
 70
     0
  9
$DIMSD1
 70
     0
  9
$DIMSD2
 70
     0
  9
$DIMTOLJ
 70
     0
  9
$DIMTZIN
 70
     0
  9
$DIMALTZ
 70
     0
  9
$DIMALTTZ
 70
     0
  9
$DIMUPT
 70
     0
  9
$DIMDEC
 70
     2
  9
$DIMTDEC
 70
     2
  9
$DIMALTU
 70
     2
  9
$DIMALTTD
 70
     3
  9
$DIMTXSTY
  7
Standard
  9
$DIMAUNIT
 70
     0
  9
$DIMADEC
 70
     2
  9
$DIMALTRND
 40
0.0
  9
$DIMAZIN
 70
     0
  9
$DIMDSEP
 70
    44
  9
$DIMATFIT
 70
     3
  9
$DIMFRAC
 70
     0
  9
$DIMLDRBLK
  1

  9
$DIMLUNIT
 70
     2
  9
$DIMLWD
 70
    -2
  9
$DIMLWE
 70
    -2
  9
$DIMTMOVE
 70
     0
  9
$LUNITS
 70
     2
  9
$LUPREC
 70
     2
  9
$SKETCHINC
 40
1.0
  9
$FILLETRAD
 40
10.0
  9
$AUNITS
 70
     0
  9
$AUPREC
 70
     2
  9
$MENU
  1
.
  9
$ELEVATION
 40
0.0
  9
$PELEVATION
 40
0.0
  9
$THICKNESS
 40
0.0
  9
$LIMCHECK
 70
     0
  9
$CHAMFERA
 40
0.0
  9
$CHAMFERB
 40
0.0
  9
$CHAMFERC
 40
0.0
  9
$CHAMFERD
 40
0.0
  9
$SKPOLY
 70
     0
  9
$TDCREATE
 40
2458985.691026481
  9
$TDUCREATE
 40
2458985.566026481
  9
$TDUPDATE
 40
2458985.691026759
  9
$TDUUPDATE
 40
2458985.566026759
  9
$TDINDWG
 40
0.0000000116
  9
$TDUSRTIMER
 40
0.0000000116
  9
$USRTIMER
 70
     1
  9
$ANGBASE
 50
0.0
  9
$ANGDIR
 70
     0
  9
$PDMODE
 70
     0
  9
$PDSIZE
 40
-1.0
  9
$PLINEWID
 40
0.0
  9
$SPLFRAME
 70
     0
  9
$SPLINETYPE
 70
     6
  9
$SPLINESEGS
 70
     8
  9
$HANDSEED
  5
CB
  9
$SURFTAB1
 70
     6
  9
$SURFTAB2
 70
     6
  9
$SURFTYPE
 70
     6
  9
$SURFU
 70
     6
  9
$SURFV
 70
     6
  9
$UCSBASE
  2

  9
$UCSNAME
  2

  9
$UCSORG
 10
0.0
 20
0.0
 30
0.0
  9
$UCSXDIR
 10
1.0
 20
0.0
 30
0.0
  9
$UCSYDIR
 10
0.0
 20
1.0
 30
0.0
  9
$UCSORTHOREF
  2

  9
$UCSORTHOVIEW
 70
     0
  9
$UCSORGTOP
 10
0.0
 20
0.0
 30
0.0
  9
$UCSORGBOTTOM
 10
0.0
 20
0.0
 30
0.0
  9
$UCSORGLEFT
 10
0.0
 20
0.0
 30
0.0
  9
$UCSORGRIGHT
 10
0.0
 20
0.0
 30
0.0
  9
$UCSORGFRONT
 10
0.0
 20
0.0
 30
0.0
  9
$UCSORGBACK
 10
0.0
 20
0.0
 30
0.0
  9
$PUCSBASE
  2

  9
$PUCSNAME
  2

  9
$PUCSORG
 10
0.0
 20
0.0
 30
0.0
  9
$PUCSXDIR
 10
1.0
 20
0.0
 30
0.0
  9
$PUCSYDIR
 10
0.0
 20
1.0
 30
0.0
  9
$PUCSORTHOREF
  2

  9
$PUCSORTHOVIEW
 70
     0
  9
$PUCSORGTOP
 10
0.0
 20
0.0
 30
0.0
  9
$PUCSORGBOTTOM
 10
0.0
 20
0.0
 30
0.0
  9
$PUCSORGLEFT
 10
0.0
 20
0.0
 30
0.0
  9
$PUCSORGRIGHT
 10
0.0
 20
0.0
 30
0.0
  9
$PUCSORGFRONT
 10
0.0
 20
0.0
 30
0.0
  9
$PUCSORGBACK
 10
0.0
 20
0.0
 30
0.0
  9
$USERI1
 70
     0
  9
$USERI2
 70
     0
  9
$USERI3
 70
     0
  9
$USERI4
 70
     0
  9
$USERI5
 70
     0
  9
$USERR1
 40
0.0
  9
$USERR2
 40
0.0
  9
$USERR3
 40
0.0
  9
$USERR4
 40
0.0
  9
$USERR5
 40
0.0
  9
$WORLDVIEW
 70
     1
  9
$SHADEDGE
 70
     3
  9
$SHADEDIF
 70
    70
  9
$TILEMODE
 70
     1
  9
$MAXACTVP
 70
    64
  9
$PINSBASE
 10
0.0
 20
0.0
 30
0.0
  9
$PLIMCHECK
 70
     0
  9
$PEXTMIN
 10
1.0000000000E+20
 20
1.0000000000E+20
 30
1.0000000000E+20
  9
$PEXTMAX
 10
-1.0000000000E+20
 20
-1.0000000000E+20
 30
-1.0000000000E+20
  9
$PLIMMIN
 10
0.0
 20
0.0
  9
$PLIMMAX
 10
420.0
 20
297.0
  9
$UNITMODE
 70
     0
  9
$VISRETAIN
 70
     1
  9
$PLINEGEN
 70
     0
  9
$PSLTSCALE
 70
     1
  9
$TREEDEPTH
 70
  3020
  9
$CMLSTYLE
  2
Standard
  9
$CMLJUST
 70
     0
  9
$CMLSCALE
 40
20.0
  9
$PROXYGRAPHICS
 70
     1
  9
$MEASUREMENT
 70
     1
  9
$CELWEIGHT
370
    -1
  9
$ENDCAPS
280
     0
  9
$JOINSTYLE
280
     0
  9
$LWDISPLAY
290
     1
  9
$INSUNITS
 70
     4
  9
$HYPERLINKBASE
  1

  9
$STYLESHEET
  1

  9
$XEDIT
290
     1
  9
$CEPSNTYPE
380
     0
  9
$PSTYLEMODE
290
     1
  9
$FINGERPRINTGUID
  2
{45fb593e-cc98-4c37-80f5-b8da0ca10a52}
  9
$VERSIONGUID
  2
{FAEB1C32-E019-11D5-929B-00C0DF256EC4}
  9
$EXTNAMES
290
     1
  9
$PSVPSCALE
 40
0.0
  9
$OLESTARTUP
290
     0
  0
ENDSEC
  0
SECTION
  2
CLASSES
  0
CLASS
  1
ACDBDICTIONARYWDFLT
  2
AcDbDictionaryWithDefault
  3
ObjectDBX Classes
 90
        0
280
     0
281
     0
  0
CLASS
  1
VISUALSTYLE
  2
AcDbVisualStyle
  3
ObjectDBX Classes
 90
     4095
280
     0
281
     0
  0
CLASS
  1
MATERIAL
  2
AcDbMaterial
  3
ObjectDBX Classes
 90
     1153
280
     0
281
     0
  0
CLASS
  1
SCALE
  2
AcDbScale
  3
ObjectDBX Classes
 90
     1153
280
     0
281
     0
  0
CLASS
  1
TABLESTYLE
  2
AcDbTableStyle
  3
ObjectDBX Classes
 90
     4095
280
     0
281
     0
  0
CLASS
  1
MLEADERSTYLE
  2
AcDbMLeaderStyle
  3
ACDB_MLEADERSTYLE_CLASS
 90
     4095
280
     0
281
     0
  0
CLASS
  1
SUN
  2
AcDbSun
  3
SCENEOE
 90
     1153
280
     0
281
     0
  0
CLASS
  1
ACDBPLACEHOLDER
  2
AcDbPlaceHolder
  3
ObjectDBX Classes
 90
        0
280
     0
281
     0
  0
CLASS
  1
LAYOUT
  2
AcDbLayout
  3
ObjectDBX Classes
 90
        0
280
     0
281
     0
  0
ENDSEC
  0
SECTION
  2
TABLES
  0
TABLE
  2
VPORT
  5
8
330
0
100
AcDbSymbolTable
 70
     1
  0
VPORT
  5
29
330
8
100
AcDbSymbolTableRecord
100
AcDbViewportTableRecord
  2
*Active
 70
     0
 10
0.0
 20
0.0
 11
1.0
 21
1.0
 12
139.7
 22
107.95
 13
0.0
 23
0.0
 14
10.0
 24
10.0
 15
10.0
 25
10.0
 16
0.0
 26
0.0
 36
1.0
 17
0.0
 27
0.0
 37
0.0
 40
215.9
 41
1.2941176471
 42
50.0
 43
0.0
 44
0.0
 50
0.0
 51
0.0
 71
     0
 72
  2000
 73
     1
 74
     3
 75
     0
 76
     0
 77
     0
 78
     0
281
     0
 65
     1
110
0.0
120
0.0
130
0.0
111
1.0
121
0.0
131
0.0
112
0.0
122
1.0
132
0.0
 79
     0
146
0.0
  0
ENDTAB
  0
TABLE
  2
LTYPE
  5
5
330
0
100
AcDbSymbolTable
 70
     6
  0
LTYPE
  5
14
330
5
100
AcDbSymbolTableRecord
100
AcDbLinetypeTableRecord
  2
ByBlock
 70
     0
  3

 72
    65
 73
     0
 40
0.0
  0
LTYPE
  5
15
330
5
100
AcDbSymbolTableRecord
100
AcDbLinetypeTableRecord
  2
ByLayer
 70
     0
  3

 72
    65
 73
     0
 40
0.0
  0
LTYPE
  5
16
330
5
100
AcDbSymbolTableRecord
100
AcDbLinetypeTableRecord
  2
Continuous
 70
     0
  3
Solid line
 72
    65
 73
     0
 40
0.0
  0
LTYPE
  5
6E
330
5
100
AcDbSymbolTableRecord
100
AcDbLinetypeTableRecord
  2
HIDDEN
 70
     0
  3
Hidden __ __ __ __ __ __ __ __ __ __ __ __ __ __
 72
    65
 73
     2
 40
1.905
 49
1.27
 74
     0
 49
-0.635
 74
     0
  0
LTYPE
  5
6F
330
5
100
AcDbSymbolTableRecord
100
AcDbLinetypeTableRecord
  2
PHANTOM
 70
     0
  3
Phantom ______  __  __  ______  __  __  ______
 72
    65
 73
     6
 40
12.7
 49
6.35
 74
     0
 49
-1.27
 74
     0
 49
1.27
 74
     0
 49
-1.27
 74
     0
 49
1.27
 74
     0
 49
-1.27
 74
     0
  0
LTYPE
  5
70
330
5
100
AcDbSymbolTableRecord
100
AcDbLinetypeTableRecord
  2
CENTER
 70
     0
  3
Center ____ _ ____ _ ____ _ ____ _ ____ _ ____
 72
    65
 73
     4
 40
10.16
 49
6.35
 74
     0
 49
-1.27
 74
     0
 49
1.27
 74
     0
 49
-1.27
 74
     0
  0
LTYPE
  5
71
330
5
100
AcDbSymbolTableRecord
100
AcDbLinetypeTableRecord
  2
CENTERX2
 70
     0
  3
Center (2x) ________  __  ________  __  _____
 72
    65
 73
     4
 40
20.32
 49
12.7
 74
     0
 49
-2.54
 74
     0
 49
2.54
 74
     0
 49
-2.54
 74
     0
  0
LTYPE
  5
72
330
5
100
AcDbSymbolTableRecord
100
AcDbLinetypeTableRecord
  2
DOT2
 70
     0
  3
Dot (.5x) ........................................
 72
    65
 73
     2
 40
0.635
 49
0.0
 74
     0
 49
-0.635
 74
     0
  0
ENDTAB
  0
TABLE
  2
LAYER
  5
2
330
0
100
AcDbSymbolTable
 70
    17
  0
LAYER
  5
10
330
2
100
AcDbSymbolTableRecord
100
AcDbLayerTableRecord
  2
0
 70
     0
 62
     7
  6
Continuous
370
    -3
390
F
  0
LAYER
  5
73
330
2
100
AcDbSymbolTableRecord
100
AcDbLayerTableRecord
  2
FORMAT
 70
     0
 62
     7
  6
Continuous
370
    -3
390
F
  0
LAYER
  5
74
330
2
100
AcDbSymbolTableRecord
100
AcDbLayerTableRecord
  2
YARDIMCI_GEOMETRI
 70
     0
 62
    -6
  6
Continuous
290
     0
370
    -3
390
F
  0
LAYER
  5
75
330
2
100
AcDbSymbolTableRecord
100
AcDbLayerTableRecord
  2
SAYFA_CERCEVESI
 70
     0
 62
     7
  6
Continuous
370
    25
390
F
  0
LAYER
  5
76
330
2
100
AcDbSymbolTableRecord
100
AcDbLayerTableRecord
  2
ANTET
 70
     0
 62
     7
  6
Continuous
370
    -3
390
F
  0
LAYER
  5
77
330
2
100
AcDbSymbolTableRecord
100
AcDbLayerTableRecord
  2
OLCU
 70
     0
 62
   150
  6
Continuous
370
    -3
390
F
  0
LAYER
  5
78
330
2
100
AcDbSymbolTableRecord
100
AcDbLayerTableRecord
  2
METIN
 70
     0
 62
    96
  6
Continuous
370
    -3
390
F
  0
LAYER
  5
79
330
2
100
AcDbSymbolTableRecord
100
AcDbLayerTableRecord
  2
BALON
 70
     0
 62
     5
  6
Continuous
370
    -3
390
F
  0
LAYER
  5
7A
330
2
100
AcDbSymbolTableRecord
100
AcDbLayerTableRecord
  2
VURGU
 70
     0
 62
     7
  6
Continuous
370
    -3
390
F
  0
LAYER
  5
7B
330
2
100
AcDbSymbolTableRecord
100
AcDbLayerTableRecord
  2
SILIK
 70
     0
 62
     7
  6
Continuous
370
    -3
390
F
  0
LAYER
  5
7C
330
2
100
AcDbSymbolTableRecord
100
AcDbLayerTableRecord
  2
MODEL
 70
     0
 62
     7
  6
Continuous
370
    -3
390
F
  0
LAYER
  5
7D
330
2
100
AcDbSymbolTableRecord
100
AcDbLayerTableRecord
  2
DETAYLANDıRMA
 70
     0
 62
   190
  6
Continuous
370
    -3
390
F
  0
LAYER
  5
7E
330
2
100
AcDbSymbolTableRecord
100
AcDbLayerTableRecord
  2
TOLERANS
 70
     0
 62
   230
  6
Continuous
370
    -3
390
F
  0
LAYER
  5
7F
330
2
100
AcDbSymbolTableRecord
100
AcDbLayerTableRecord
  2
MERKEZ_CIZGILERI
 70
     0
 62
    30
  6
Continuous
370
    -3
390
F
  0
LAYER
  5
80
330
2
100
AcDbSymbolTableRecord
100
AcDbLayerTableRecord
  2
KESIT-DETAY_CIZGILERI
 70
     0
 62
     7
  6
Continuous
370
    -3
390
F
  0
LAYER
  5
81
330
2
100
AcDbSymbolTableRecord
100
AcDbLayerTableRecord
  2
\U+041E\U+0421\U+0415\U+0412\U+042B\U+0415
 70
     0
 62
     7
  6
Continuous
370
    -3
390
F
  0
LAYER
  5
82
330
2
100
AcDbSymbolTableRecord
100
AcDbLayerTableRecord
  2
\U+0412\U+041E\U+0414\U+042F\U+041D\U+042B\U+0415_\U+0417\U+041D\U+0410\U+041A\U+0418
 70
     0
 62
    11
  6
Continuous
370
    -3
390
F
  0
ENDTAB
  0
TABLE
  2
STYLE
  5
3
330
0
100
AcDbSymbolTable
 70
     1
  0
STYLE
  5
11
330
3
100
AcDbSymbolTableRecord
100
AcDbTextStyleTableRecord
  2
Standard
 70
     0
 40
0.0
 41
1.0
 50
0.0
 71
     0
 42
3.5
  3
txt
  4

  0
ENDTAB
  0
TABLE
  2
VIEW
  5
6
330
0
100
AcDbSymbolTable
 70
     0
  0
ENDTAB
  0
TABLE
  2
UCS
  5
7
330
0
100
AcDbSymbolTable
 70
     0
  0
ENDTAB
  0
TABLE
  2
APPID
  5
9
330
0
100
AcDbSymbolTable
 70
     1
  0
APPID
  5
12
330
9
100
AcDbSymbolTableRecord
100
AcDbRegAppTableRecord
  2
ACAD
 70
     0
  0
ENDTAB
  0
TABLE
  2
DIMSTYLE
  5
A
330
0
100
AcDbSymbolTable
 70
     1
100
AcDbDimStyleTable
  0
DIMSTYLE
105
27
330
A
100
AcDbSymbolTableRecord
100
AcDbDimStyleTableRecord
  2
ISO-25
 70
     0
 41
2.5
 42
0.625
 43
3.75
 44
1.25
 73
     0
 74
     0
 77
     1
 78
     8
140
2.5
141
2.5
143
0.0393700787
147
0.625
171
     3
172
     1
178
     0
271
     2
272
     2
274
     3
278
    44
283
     0
284
     8
340
11
  0
ENDTAB
  0
TABLE
  2
BLOCK_RECORD
  5
1
330
0
100
AcDbSymbolTable
 70
     3
  0
BLOCK_RECORD
  5
1F
330
1
100
AcDbSymbolTableRecord
100
AcDbBlockTableRecord
  2
*Model_Space
340
22
  0
BLOCK_RECORD
  5
1B
330
1
100
AcDbSymbolTableRecord
100
AcDbBlockTableRecord
  2
*Paper_Space
340
1E
  0
BLOCK_RECORD
  5
23
330
1
100
AcDbSymbolTableRecord
100
AcDbBlockTableRecord
  2
*Paper_Space0
340
26
  0
BLOCK_RECORD
  5
88
330
1
100
AcDbSymbolTableRecord
100
AcDbBlockTableRecord
  2
SW_CENTERMARKSYMBOL_0
340
0
102
{BLKREFS
331
93
102
}
  0
BLOCK_RECORD
  5
9C
330
1
100
AcDbSymbolTableRecord
100
AcDbBlockTableRecord
  2
SW_CENTERMARKSYMBOL_1
340
0
102
{BLKREFS
331
A7
102
}
  0
ENDTAB
  0
ENDSEC
  0
SECTION
  2
BLOCKS
  0
BLOCK
  5
20
330
1F
100
AcDbEntity
  8
0
100
AcDbBlockBegin
  2
*Model_Space
 70
     0
 10
0.0
 20
0.0
 30
0.0
  3
*Model_Space
  1

  0
ENDBLK
  5
21
330
1F
100
AcDbEntity
  8
0
100
AcDbBlockEnd
  0
BLOCK
  5
1C
330
1B
100
AcDbEntity
 67
     1
  8
0
100
AcDbBlockBegin
  2
*Paper_Space
 70
     0
 10
0.0
 20
0.0
 30
0.0
  3
*Paper_Space
  1

  0
ENDBLK
  5
1D
330
1B
100
AcDbEntity
 67
     1
  8
0
100
AcDbBlockEnd
  0
BLOCK
  5
24
330
23
100
AcDbEntity
  8
0
100
AcDbBlockBegin
  2
*Paper_Space0
 70
     0
 10
0.0
 20
0.0
 30
0.0
  3
*Paper_Space0
  1

  0
ENDBLK
  5
25
330
23
100
AcDbEntity
  8
0
100
AcDbBlockEnd
  0
BLOCK
  5
89
330
88
100
AcDbEntity
  8
0
100
AcDbBlockBegin
  2
SW_CENTERMARKSYMBOL_0
 70
     0
 10
0.0
 20
0.0
 30
0.0
  3
SW_CENTERMARKSYMBOL_0
  1

  0
LINE
  5
8B
330
88
100
AcDbEntity
  8
FORMAT
 62
     0
100
AcDbLine
 10
0.0
 20
0.0
 30
0.0
 11
2.5
 21
0.0
 31
0.0
  0
LINE
  5
8C
330
88
100
AcDbEntity
  8
FORMAT
 62
     0
100
AcDbLine
 10
0.0
 20
0.0
 30
0.0
 11
0.0
 21
2.5
 31
0.0
  0
LINE
  5
8D
330
88
100
AcDbEntity
  8
FORMAT
 62
     0
100
AcDbLine
 10
0.0
 20
0.0
 30
0.0
 11
-2.5
 21
0.0
 31
0.0
  0
LINE
  5
8E
330
88
100
AcDbEntity
  8
FORMAT
 62
     0
100
AcDbLine
 10
0.0
 20
0.0
 30
0.0
 11
0.0
 21
-2.5
 31
0.0
  0
LINE
  5
8F
330
88
100
AcDbEntity
  8
FORMAT
 62
     0
100
AcDbLine
 10
5.0
 20
0.0
 30
0.0
 11
115.0
 21
0.0
 31
0.0
  0
LINE
  5
90
330
88
100
AcDbEntity
  8
FORMAT
 62
     0
100
AcDbLine
 10
0.0
 20
5.0
 30
0.0
 11
0.0
 21
115.0
 31
0.0
  0
LINE
  5
91
330
88
100
AcDbEntity
  8
FORMAT
 62
     0
100
AcDbLine
 10
-5.0
 20
0.0
 30
0.0
 11
-115.0
 21
0.0
 31
0.0
  0
LINE
  5
92
330
88
100
AcDbEntity
  8
FORMAT
 62
     0
100
AcDbLine
 10
0.0
 20
-5.0
 30
0.0
 11
0.0
 21
-115.0
 31
0.0
  0
ENDBLK
  5
8A
330
88
100
AcDbEntity
  8
0
100
AcDbBlockEnd
  0
BLOCK
  5
9D
330
9C
100
AcDbEntity
  8
0
100
AcDbBlockBegin
  2
SW_CENTERMARKSYMBOL_1
 70
     0
 10
0.0
 20
0.0
 30
0.0
  3
SW_CENTERMARKSYMBOL_1
  1

  0
LINE
  5
9F
330
9C
100
AcDbEntity
  8
FORMAT
 62
     0
100
AcDbLine
 10
0.0
 20
0.0
 30
0.0
 11
0.0
 21
2.5
 31
0.0
  0
LINE
  5
A0
330
9C
100
AcDbEntity
  8
FORMAT
 62
     0
100
AcDbLine
 10
0.0
 20
0.0
 30
0.0
 11
-2.5
 21
0.0
 31
0.0
  0
LINE
  5
A1
330
9C
100
AcDbEntity
  8
FORMAT
 62
     0
100
AcDbLine
 10
0.0
 20
0.0
 30
0.0
 11
0.0
 21
-2.5
 31
0.0
  0
LINE
  5
A2
330
9C
100
AcDbEntity
  8
FORMAT
 62
     0
100
AcDbLine
 10
0.0
 20
0.0
 30
0.0
 11
2.5
 21
0.0
 31
0.0
  0
LINE
  5
A3
330
9C
100
AcDbEntity
  8
FORMAT
 62
     0
100
AcDbLine
 10
0.0
 20
5.0
 30
0.0
 11
0.0
 21
82.5
 31
0.0
  0
LINE
  5
A4
330
9C
100
AcDbEntity
  8
FORMAT
 62
     0
100
AcDbLine
 10
-5.0
 20
0.0
 30
0.0
 11
-82.5
 21
0.0
 31
0.0
  0
LINE
  5
A5
330
9C
100
AcDbEntity
  8
FORMAT
 62
     0
100
AcDbLine
 10
0.0
 20
-5.0
 30
0.0
 11
0.0
 21
-82.5
 31
0.0
  0
LINE
  5
A6
330
9C
100
AcDbEntity
  8
FORMAT
 62
     0
100
AcDbLine
 10
5.0
 20
0.0
 30
0.0
 11
82.5
 21
0.0
 31
0.0
  0
ENDBLK
  5
9E
330
9C
100
AcDbEntity
  8
0
100
AcDbBlockEnd
  0
ENDSEC
  0
SECTION
  2
ENTITIES
  0
LINE
  5
83
330
1F
100
AcDbEntity
  8
0
  6
Continuous
 62
     7
370
    25
100
AcDbLine
 10
60.2388293534
 20
74.0579840231
 30
0.0
 11
60.2388293534
 21
-88.8167369675
 31
0.0
  0
LINE
  5
84
330
1F
100
AcDbEntity
  8
0
  6
Continuous
 62
     7
370
    25
100
AcDbLine
 10
220.2388257771
 20
-88.8167369675
 30
0.0
 11
220.2388257771
 21
74.0187716174
 31
0.0
  0
CIRCLE
  5
85
330
1F
100
AcDbEntity
  8
0
  6
Continuous
 62
     7
370
    25
100
AcDbCircle
 10
140.2388275653
 20
153.1832617212
 30
0.0
 40
99.1
  0
CIRCLE
  5
86
330
1F
100
AcDbEntity
  8
0
  6
Continuous
 62
     7
370
    25
100
AcDbCircle
 10
140.2388275653
 20
153.1832617212
 30
0.0
 40
112.5
  0
LINE
  5
87
330
1F
100
AcDbEntity
  8
0
  6
Continuous
 62
     7
370
    25
100
AcDbLine
 10
220.2388257771
 20
-88.8167369675
 30
0.0
 11
60.2388293534
 21
-88.8167369675
 31
0.0
  0
INSERT
  5
93
330
1F
100
AcDbEntity
  8
FORMAT
 62
     7
100
AcDbBlockReference
  2
SW_CENTERMARKSYMBOL_0
 10
140.2388275653
 20
153.1832617212
 30
0.0
  0
LINE
  5
94
330
1F
100
AcDbEntity
  8
0
  6
Continuous
 62
     7
370
    25
100
AcDbLine
 10
252.738824585
 20
361.4749500337
 30
0.0
 11
252.738824585
 21
888.4749600473
 31
0.0
  0
LINE
  5
95
330
1F
100
AcDbEntity
  8
0
  6
Continuous
 62
     7
370
    25
100
AcDbLine
 10
27.7388305455
 20
888.4749600473
 30
0.0
 11
27.7388305455
 21
361.4749500337
 31
0.0
  0
CIRCLE
  5
96
330
1F
100
AcDbEntity
  8
0
  6
Continuous
 62
     7
370
    25
100
AcDbCircle
 10
140.2388275653
 20
624.9749550405
 30
0.0
 40
70.5
  0
CIRCLE
  5
97
330
1F
100
AcDbEntity
  8
0
  6
Continuous
 62
     7
370
    25
100
AcDbCircle
 10
140.2388275653
 20
624.9749550405
 30
0.0
 40
80.0
  0
LINE
  5
98
330
1F
100
AcDbEntity
  8
0
  6
Continuous
 62
     7
370
    25
100
AcDbLine
 10
140.2388275653
 20
888.4749600473
 30
0.0
 11
252.738824585
 21
888.4749600473
 31
0.0
  0
LINE
  5
99
330
1F
100
AcDbEntity
  8
0
  6
Continuous
 62
     7
370
    25
100
AcDbLine
 10
27.7388305455
 20
888.4749600473
 30
0.0
 11
140.2388275653
 21
888.4749600473
 31
0.0
  0
LINE
  5
9A
330
1F
100
AcDbEntity
  8
0
  6
Continuous
 62
     7
370
    25
100
AcDbLine
 10
140.2388275653
 20
361.4749500337
 30
0.0
 11
252.738824585
 21
361.4749500337
 31
0.0
  0
LINE
  5
9B
330
1F
100
AcDbEntity
  8
0
  6
Continuous
 62
     7
370
    25
100
AcDbLine
 10
27.7388305455
 20
361.4749500337
 30
0.0
 11
140.2388275653
 21
361.4749500337
 31
0.0
  0
INSERT
  5
A7
330
1F
100
AcDbEntity
  8
FORMAT
100
AcDbBlockReference
  2
SW_CENTERMARKSYMBOL_1
 10
140.2388275653
 20
624.9749550405
 30
0.0
  0
LINE
  5
A8
330
1F
100
AcDbEntity
  8
0
  6
Continuous
 62
     7
370
    25
100
AcDbLine
 10
-169.8226825525
 20
265.6832587409
 30
0.0
 11
-696.822692566
 21
265.6832587409
 31
0.0
  0
LINE
  5
A9
330
1F
100
AcDbEntity
  8
0
  6
Continuous
 62
     7
370
    25
100
AcDbLine
 10
-353.3713937928
 20
40.6832647014
 30
0.0
 11
-169.8226825525
 21
40.6832647014
 31
0.0
  0
LINE
  5
AA
330
1F
100
AcDbEntity
  8
0
  6
Continuous
 62
     7
370
    25
100
AcDbLine
 10
-696.822692566
 20
40.6832647014
 30
0.0
 11
-513.3226857711
 21
40.6832647014
 31
0.0
  0
LINE
  5
AB
330
1F
100
AcDbEntity
  8
0
  6
Continuous
 62
     7
370
    25
100
AcDbLine
 10
-513.3226857711
 20
40.6832647014
 30
0.0
 11
-513.3226857711
 21
-88.8167369675
 31
0.0
  0
LINE
  5
AC
330
1F
100
AcDbEntity
  8
0
  6
Continuous
 62
     7
370
    25
100
AcDbLine
 10
-353.3226893474
 20
-88.8167369675
 30
0.0
 11
-353.3226893474
 21
40.7179471541
 31
0.0
  0
LWPOLYLINE
  5
AD
330
1F
100
AcDbEntity
  8
0
  6
Continuous
 62
     7
370
    25
100
AcDbPolyline
 90
       45
 70
   128
 43
0.0
 10
-353.3713937928
 20
40.7179471541
 10
-353.398409598
 20
40.7370951462
 10
-353.8701580097
 20
41.0720061946
 10
-354.7650695969
 20
41.7043444205
 10
-355.964240544
 20
42.5461706209
 10
-357.5022415449
 20
43.6159771371
 10
-359.4126970698
 20
44.9292760778
 10
-361.6420746971
 20
46.4388978172
 10
-364.3554718424
 20
48.2417818594
 10
-367.3883275319
 20
50.2095248985
 10
-370.7929075886
 20
52.3556571889
 10
-374.4898260762
 20
54.6055984187
 10
-379.104190432
 20
57.2882470179
 10
-384.0683558215
 20
60.0047287035
 10
-389.4988977541
 20
62.758038609
 10
-395.2704676617
 20
65.409566133
 10
-400.2330200006
 20
67.4442973423
 10
-405.4101695497
 20
69.3062197852
 10
-410.9292038907
 20
70.977511673
 10
-416.6417149086
 20
72.3469805408
 10
-421.3193998863
 20
73.180745213
 10
-426.0769434464
 20
73.7556171107
 10
-431.0236665611
 20
74.052656858
 10
-435.9879316021
 20
74.0419131208
 10
-440.7976809148
 20
73.7337943602
 10
-445.5550247063
 20
73.1465172458
 10
-450.3558938582
 20
72.2732123423
 10
-455.0463342298
 20
71.1578604269
 10
-461.0018962253
 20
69.3833854485
 10
-466.7110004653
 20
67.3285600233
 10
-472.3059655358
 20
65.0021236825
 10
-477.615144961
 20
62.5296783137
 10
-482.6414072145
 20
59.9708881664
 10
-487.3641812433
 20
57.3879953909
 10
-491.8626518179
 20
54.7802847314
 10
-496.0145549108
 20
52.2549700427
 10
-500.2461717655
 20
49.5735880423
 10
-503.9703221251
 20
47.1297901559
 10
-507.2527350117
 20
44.915753274
 10
-509.8811284829
 20
43.1039955902
 10
-511.3487885524
 20
42.0783412147
 10
-512.421359234
 20
41.3224127579
 10
-513.0957857896
 20
40.8446070242
 10
-513.3226857711
 20
40.6832647014
 10
-513.3226857711
 20
40.6832647014
  0
LINE
  5
AE
330
1F
100
AcDbEntity
  8
0
  6
Continuous
 62
     7
370
    25
100
AcDbLine
 10
-696.822692566
 20
40.6832647014
 30
0.0
 11
-696.822692566
 21
265.6832587409
 31
0.0
  0
LINE
  5
AF
330
1F
100
AcDbEntity
  8
0
  6
Continuous
 62
     7
370
    25
100
AcDbLine
 10
-169.8226825525
 20
40.6832647014
 30
0.0
 11
-169.8226825525
 21
265.6832587409
 31
0.0
  0
LINE
  5
B0
330
1F
100
AcDbEntity
  8
0
  6
Continuous
 62
     7
370
    25
100
AcDbLine
 10
-353.3226893474
 20
-88.8167369675
 30
0.0
 11
-513.3226857711
 21
-88.8167369675
 31
0.0
  0
LINE
  5
B1
330
1F
100
AcDbEntity
  8
0
  6
Continuous
 62
     7
370
    25
100
AcDbLine
 10
773.7602882862
 20
40.6832647014
 30
0.0
 11
957.2602950812
 21
40.6832647014
 31
0.0
  0
LINE
  5
B2
330
1F
100
AcDbEntity
  8
0
  6
Continuous
 62
     7
370
    25
100
AcDbLine
 10
430.2602850676
 20
40.6832647014
 30
0.0
 11
613.8091602206
 21
40.6832647014
 31
0.0
  0
LINE
  5
B3
330
1F
100
AcDbEntity
  8
0
  6
Continuous
 62
     7
370
    25
100
AcDbLine
 10
957.2602950812
 20
265.6832587409
 30
0.0
 11
430.2602850676
 21
265.6832587409
 31
0.0
  0
LINE
  5
B4
330
1F
100
AcDbEntity
  8
0
  6
Continuous
 62
     7
370
    25
100
AcDbLine
 10
613.7602918625
 20
40.7180067587
 30
0.0
 11
613.7602918625
 21
-88.8167369675
 31
0.0
  0
LINE
  5
B5
330
1F
100
AcDbEntity
  8
0
  6
Continuous
 62
     7
370
    25
100
AcDbLine
 10
773.7602882862
 20
-88.8167369675
 30
0.0
 11
773.7602882862
 21
40.6832647014
 31
0.0
  0
SPLINE
  5
B6
330
1F
100
AcDbEntity
  8
0
  6
Continuous
 62
     7
370
    25
100
AcDbSpline
210
0.0
220
0.0
230
1.0
 70
     8
 71
     3
 72
    49
 73
    45
 74
     0
 42
0.000000001
 43
0.00000001
 40
0.0
 40
0.0
 40
0.0
 40
0.0
 40
0.0222446874971312
 40
0.0446677108601934
 40
0.0676404942416574
 40
0.0907952328407602
 40
0.1130361206163218
 40
0.1354198039671094
 40
0.1582182584842677
 40
0.1811456405842603
 40
0.2054492956626568
 40
0.2298837929528503
 40
0.2547006926399031
 40
0.279640299806023
 40
0.3082293088287315
 40
0.337007042321599
 40
0.3664284310851756
 40
0.396110728333517
 40
0.4155922754266863
 40
0.4351812245043086
 40
0.4551484903018524
 40
0.4752668036414812
 40
0.4947555953209244
 40
0.5144055141698166
 40
0.5345604214027231
 40
0.5548837031795173
 40
0.5770133675680675
 40
0.599318318099258
 40
0.6221018783887418
 40
0.6450227711400953
 40
0.6739240688590965
 40
0.7030366576603264
 40
0.732771621879807
 40
0.7627142758433009
 40
0.7917833855144641
 40
0.8210690793644061
 40
0.851106969326731
 40
0.881442693532697
 40
0.9031395216792809
 40
0.9249731609346074
 40
0.9472630960860591
 40
0.969722120274754
 40
0.9914230473198693
 40
1.0
 40
1.0
 40
1.0
 40
1.0
 10
773.7602882862235
 20
40.68326470138341
 30
0.0
 10
773.7193629023758
 20
40.71238640590687
 30
0.0
 10
773.6371840354984
 20
40.770863283929
 30
0.0
 10
772.9683217961152
 20
41.24560166415951
 30
0.0
 10
771.8904392337818
 20
42.00641936149208
 30
0.0
 10
770.3863978141768
 20
43.05916286730881
 30
0.0
 10
768.508404175413
 20
44.3586029991648
 30
0.0
 10
766.2809090222415
 20
45.87788652428399
 30
0.0
 10
763.6871599084359
 20
47.61536782849467
 30
0.0
 10
760.6864757954304
 20
49.58117690983514
 30
0.0
 10
757.2861629015131
 20
51.74795628467216
 30
0.0
 10
753.4704549999461
 20
54.09649903301712
 30
0.0
 10
749.3093734397744
 20
56.55116067782369
 30
0.0
 10
744.5991330280765
 20
59.18845311316226
 30
0.0
 10
739.3071256439458
 20
61.95495726890469
 30
0.0
 10
733.3522374661078
 20
64.78842152278749
 30
0.0
 10
726.9473293402078
 20
67.47955497068298
 30
0.0
 10
720.88895424696
 20
69.6261676473374
 30
0.0
 10
715.3673569590827
 20
71.23184018576552
 30
0.0
 10
710.4865092000188
 20
72.38635707045758
 30
0.0
 10
705.4311948736992
 20
73.28447135604854
 30
0.0
 10
700.2907419666009
 20
73.87329405622958
 30
0.0
 10
695.1238555611628
 20
74.13057033601483
 30
0.0
 10
689.9420654870568
 20
74.05174795293411
 30
0.0
 10
684.7198869746541
 20
73.62867166059765
 30
0.0
 10
679.3617599830477
 20
72.8455483147935
 30
0.0
 10
673.9453864838821
 20
71.70067922406217
 30
0.0
 10
668.4952209326284
 20
70.20259541217605
 30
0.0
 10
663.1799925437233
 20
68.42823640342831
 30
0.0
 10
657.5862908557574
 20
66.25953736669216
 30
0.0
 10
651.8187867329402
 20
63.7073000947376
 30
0.0
 10
645.9431728821855
 20
60.79946597514911
 30
0.0
 10
640.3956512648284
 20
57.80287734259907
 30
0.0
 10
635.2710271854219
 20
54.83635043948841
 30
0.0
 10
630.6103003325837
 20
51.98911520618683
 30
0.0
 10
626.4096120136468
 20
49.3116354272559
 30
0.0
 10
622.6695295482261
 20
46.84459136312211
 30
0.0
 10
619.7772081732141
 20
44.88421561849182
 30
0.0
 10
617.625593289263
 20
43.40061791353592
 30
0.0
 10
616.066908599104
 20
42.31312009832469
 30
0.0
 10
614.8687038271734
 20
41.46945667078519
 30
0.0
 10
614.1068072666365
 20
40.92964909607866
 30
0.0
 10
613.7530885394856
 20
40.67813564127596
 30
0.0
 10
613.7967827600704
 20
40.7092054676875
 30
0.0
 10
613.8091602206374
 20
40.71800675870686
 30
0.0
  0
LINE
  5
B7
330
1F
100
AcDbEntity
  8
0
  6
Continuous
 62
     7
370
    25
100
AcDbLine
 10
957.2602950812
 20
265.6832587409
 30
0.0
 11
957.2602950812
 21
40.6832647014
 31
0.0
  0
LINE
  5
B8
330
1F
100
AcDbEntity
  8
0
  6
Continuous
 62
     7
370
    25
100
AcDbLine
 10
430.2602850676
 20
265.6832587409
 30
0.0
 11
430.2602850676
 21
40.6832647014
 31
0.0
  0
LINE
  5
B9
330
1F
100
AcDbEntity
  8
0
  6
Continuous
 62
     7
370
    25
100
AcDbLine
 10
773.7602882862
 20
-88.8167369675
 30
0.0
 11
613.7602918625
 21
-88.8167369675
 31
0.0
  0
LINE
  5
BA
330
1F
100
AcDbEntity
  8
0
  6
Continuous
 62
     7
370
    25
100
AcDbLine
 10
27.7388305455
 20
-209.4693255707
 30
0.0
 11
27.7388305455
 21
-736.4693355843
 31
0.0
  0
LINE
  5
BB
330
1F
100
AcDbEntity
  8
0
  6
Continuous
 62
     7
370
    25
100
AcDbLine
 10
252.738824585
 20
-736.4693355843
 30
0.0
 11
252.738824585
 21
-209.4693255707
 31
0.0
  0
LINE
  5
BC
330
1F
100
AcDbEntity
  8
0
  6
Continuous
 62
     7
370
    25
100
AcDbLine
 10
252.738824585
 20
-736.4693355843
 30
0.0
 11
27.7388305455
 21
-736.4693355843
 31
0.0
  0
LINE
  5
BD
330
1F
100
AcDbEntity
  8
0
  6
Continuous
 62
     7
370
    25
100
AcDbLine
 10
252.738824585
 20
-209.4693255707
 30
0.0
 11
27.7388305455
 21
-209.4693255707
 31
0.0
  0
LINE
  5
BE
330
1F
100
AcDbEntity
  8
0
  6
Continuous
 62
     7
370
    25
100
AcDbLine
 10
902.1495292298
 20
-417.4667600199
 30
0.0
 11
529.5042484638
 21
-202.343218467
 31
0.0
  0
LINE
  5
BF
330
1F
100
AcDbEntity
  8
0
  6
Continuous
 62
     7
370
    25
100
AcDbLine
 10
739.5814637969
 20
-583.4188009271
 30
0.0
 11
789.6586738603
 21
-612.3277589522
 31
0.0
  0
LINE
  5
C0
330
1F
100
AcDbEntity
  8
0
  6
Continuous
 62
     7
370
    25
100
AcDbLine
 10
417.0133930943
 20
-397.2042173994
 30
0.0
 11
579.5814611614
 21
-491.052765472
 31
0.0
  0
LINE
  5
C1
330
1F
100
AcDbEntity
  8
0
  6
Continuous
 62
     7
370
    25
100
AcDbLine
 10
579.5814637956
 20
-486.7330952056
 30
0.0
 11
579.5814637956
 21
-604.9383641152
 31
0.0
  0
LINE
  5
C2
330
1F
100
AcDbEntity
  8
0
  6
Continuous
 62
     7
370
    25
100
AcDbLine
 10
739.5814585285
 20
-604.9383641152
 30
0.0
 11
739.5814585285
 21
-486.7310510814
 31
0.0
  0
SPLINE
  5
C3
330
1F
100
AcDbEntity
  8
0
  6
Continuous
 62
     7
370
    25
100
AcDbSpline
210
0.0
220
0.0
230
1.0
 70
     8
 71
     3
 72
    18
 73
    14
 74
     0
 42
0.000000001
 43
0.00000001
 40
0.0
 40
0.0
 40
0.0
 40
0.0
 40
0.0894934508107956
 40
0.1804441856971047
 40
0.272127060764987
 40
0.365281772878739
 40
0.4547599368847446
 40
0.5453732720712315
 40
0.636533906882871
 40
0.7287739323923607
 40
0.8265508942202812
 40
0.9253712859892048
 40
1.0
 40
1.0
 40
1.0
 40
1.0
 10
603.0129199315478
 20
-466.5400038702996
 30
0.0
 10
601.6684106917614
 20
-467.3258097103762
 30
0.0
 10
598.9574986335327
 20
-468.9102172133166
 30
0.0
 10
595.2889248428969
 20
-471.1869248047403
 30
0.0
 10
591.9212737181197
 20
-473.3902150073081
 30
0.0
 10
588.9712490237831
 20
-475.4605375496243
 30
0.0
 10
586.4299845509903
 20
-477.400733056584
 30
0.0
 10
584.3021376595392
 20
-479.2073598543086
 30
0.0
 10
582.555742738175
 20
-480.9150603096749
 30
0.0
 10
581.1728419143526
 20
-482.5550549294847
 30
0.0
 10
580.1994722627519
 20
-484.1306336240893
 30
0.0
 10
579.6483095388754
 20
-485.5289730289975
 30
0.0
 10
579.6308271169177
 20
-486.3711785738006
 30
0.0
 10
579.6233050794726
 20
-486.7335483678614
 30
0.0
  0
SPLINE
  5
C4
330
1F
100
AcDbEntity
  8
0
  6
Continuous
 62
     7
370
    25
100
AcDbSpline
210
0.0
220
0.0
230
1.0
 70
     8
 71
     3
 72
    39
 73
    35
 74
     0
 42
0.000000001
 43
0.00000001
 40
0.0
 40
0.0
 40
0.0
 40
0.0
 40
0.0177935188329368
 40
0.0539679390985801
 40
0.0903532271946936
 40
0.1271800474334225
 40
0.1570981346450508
 40
0.1873537573597729
 40
0.217796115367822
 40
0.2486507128819417
 40
0.2731031492536303
 40
0.2978842149186627
 40
0.3228421107453011
 40
0.3481672632311052
 40
0.3726234442729492
 40
0.3974217265851827
 40
0.4223867716589899
 40
0.4476762643304343
 40
0.4806270120864833
 40
0.5140723318293764
 40
0.547743710352537
 40
0.5818554236415563
 40
0.6158537328717405
 40
0.6502108118561387
 40
0.684748552658676
 40
0.719662298034207
 40
0.7586950016103554
 40
0.7980524514754632
 40
0.8385591326520423
 40
0.8795265054118918
 40
0.9090676905835001
 40
0.939057240180835
 40
0.9692829033628526
 40
1.0
 40
1.0
 40
1.0
 40
1.0
 10
739.5152642687547
 20
-486.7310434779911
 30
0.0
 10
739.5280289048453
 20
-485.7460343244749
 30
0.0
 10
739.5667441870568
 20
-482.758490685265
 30
0.0
 10
739.051280830108
 20
-477.7348951755375
 30
0.0
 10
737.9913431004492
 20
-471.7146269629733
 30
0.0
 10
736.4449810468456
 20
-466.1520503048445
 30
0.0
 10
734.5447486312037
 20
-461.0841545389423
 30
0.0
 10
732.3796991605243
 20
-456.5369588902329
 30
0.0
 10
729.7902682873258
 20
-452.1935232684518
 30
0.0
 10
726.9803263030675
 20
-448.4262150665511
 30
0.0
 10
724.0362988956164
 20
-445.2211272218703
 30
0.0
 10
721.0527884339178
 20
-442.5475860129364
 30
0.0
 10
717.7871497987203
 20
-440.180053698439
 30
0.0
 10
714.3084923063326
 20
-438.1894175891234
 30
0.0
 10
710.6401226001384
 20
-436.5804342419902
 30
0.0
 10
706.8233133926226
 20
-435.3521996891202
 30
0.0
 10
702.8226999271272
 20
-434.4808332602416
 30
0.0
 10
698.2592963635778
 20
-433.907288185022
 30
0.0
 10
693.0976796500111
 20
-433.7387961832173
 30
0.0
 10
687.3405862375558
 20
-434.0641332904941
 30
0.0
 10
681.4188010777222
 20
-434.8448212977834
 30
0.0
 10
675.3863573792153
 20
-436.0246191455547
 30
0.0
 10
669.2505009613777
 20
-437.5550392055344
 30
0.0
 10
663.0402863353648
 20
-439.3884001939751
 30
0.0
 10
656.740630810941
 20
-441.4964385002946
 30
0.0
 10
650.1405975634505
 20
-443.9311521040643
 30
0.0
 10
643.2546808016607
 20
-446.6906349333423
 30
0.0
 10
636.0805988381009
 20
-449.7778957182998
 30
0.0
 10
628.8999443962882
 20
-453.0626626521754
 30
0.0
 10
622.4740390734884
 20
-456.1676273130591
 30
0.0
 10
616.8566092439023
 20
-459.0026152092528
 30
0.0
 10
612.033397973345
 20
-461.528230158789
 30
0.0
 10
607.3585891469701
 20
-464.0621943344879
 30
0.0
 10
604.4692427581805
 20
-465.7096391075503
 30
0.0
 10
603.0129199315478
 20
-466.5400038702996
 30
0.0
  0
LWPOLYLINE
  5
C5
330
1F
100
AcDbEntity
  8
0
  6
Continuous
 62
     7
370
    25
100
AcDbPolyline
 90
      113
 70
   128
 43
0.0
 10
473.2588207791
 20
-391.6345568368
 10
477.7191973908
 20
-388.9151239435
 10
482.1655404191
 20
-385.9152180911
 10
486.5838590859
 20
-382.6442787336
 10
490.9602521751
 20
-379.1126000933
 10
495.2809508382
 20
-375.3312881993
 10
499.5323600823
 20
-371.3122430202
 10
503.7011022343
 20
-367.0681151217
 10
507.7740604048
 20
-362.6122501575
 10
511.7384219517
 20
-357.9586759444
 10
515.581714042
 20
-353.1220271812
 10
519.2918405303
 20
-348.1175302415
 10
522.8571320079
 20
-342.9609195287
 10
526.2663642422
 20
-337.6684329141
 10
529.5088213969
 20
-332.2567083202
 10
532.574293398
 20
-326.7427791577
 10
535.4531338855
 20
-321.1440043685
 10
538.1362918238
 20
-315.4779832563
 10
540.6153167696
 20
-309.7625554877
 10
542.8824168245
 20
-304.0156946324
 10
544.9304533658
 20
-298.2554899118
 10
546.7529884625
 20
-292.5000610317
 10
548.3442796066
 20
-286.7675186373
 10
549.699327128
 20
-281.0758958766
 10
550.8138636583
 20
-275.4431042921
 10
551.6843804726
 20
-269.8868684236
 10
552.3081432938
 20
-264.4246664936
 10
552.6831870253
 20
-259.0736855396
 10
552.8083315552
 20
-253.8507628597
 10
552.6831870253
 20
-248.7723289785
 10
552.3081432938
 20
-243.8543642999
 10
551.6843804726
 20
-239.1123435938
 10
550.8138636583
 20
-234.5611850453
 10
549.699327128
 20
-230.2152099481
 10
548.3442796066
 20
-226.0880917542
 10
546.7529884625
 20
-222.1928150075
 10
544.9304533658
 20
-218.5416403597
 10
542.8824168245
 20
-215.1460482976
 10
540.6153167696
 20
-212.0167254497
 10
538.1362918238
 20
-209.1635189595
 10
535.4531338855
 20
-206.595406062
 10
532.574293398
 20
-204.3204697497
 10
529.5088213969
 20
-202.3458592233
 10
526.2663642422
 20
-200.6777959741
 10
522.8571320079
 20
-199.3215251124
 10
519.2918405303
 20
-198.2813123196
 10
515.581714042
 20
-197.560436244
 10
511.7384219517
 20
-197.1611580762
 10
507.7740604048
 20
-197.0847382777
 10
503.7011022343
 20
-197.3314107207
 10
499.5323600823
 20
-197.9004100607
 10
495.2809508382
 20
-198.7899375129
 10
490.9602521751
 20
-199.9971981106
 10
486.5838590859
 20
-201.5183953776
 10
482.1655404191
 20
-203.3487381689
 10
477.7191973908
 20
-205.4824707044
 10
473.2588207791
 20
-207.9128790295
 10
468.7984441673
 20
-210.6323119229
 10
464.352101139
 20
-213.6322177752
 10
459.9337824723
 20
-216.9031571328
 10
455.5573893831
 20
-220.4348357731
 10
451.23669072
 20
-224.2161476671
 10
446.9852814759
 20
-228.2351928462
 10
442.8165393238
 20
-232.4793207446
 10
438.7435811534
 20
-236.9351857089
 10
434.7792196065
 20
-241.5887599219
 10
430.9359275161
 20
-246.4254086852
 10
427.2258010278
 20
-251.4299056248
 10
423.6605095502
 20
-256.5865163377
 10
420.251277316
 20
-261.8790029523
 10
417.0088201612
 20
-267.2907275462
 10
413.9433481601
 20
-272.8046567087
 10
411.0645076726
 20
-278.4034314979
 10
408.3813497344
 20
-284.0694526101
 10
405.9023247885
 20
-289.7848803787
 10
403.6352247337
 20
-295.531741234
 10
401.5871881923
 20
-301.2919459546
 10
399.7646530956
 20
-307.0473748347
 10
398.1733619516
 20
-312.7799172291
 10
396.8183144302
 20
-318.4715399898
 10
395.7037778998
 20
-324.1043315743
 10
394.8332610856
 20
-329.6605674428
 10
394.2094982643
 20
-335.1227693727
 10
393.8344545329
 20
-340.4737503268
 10
393.7093100029
 20
-345.6966730067
 10
393.8344545329
 20
-350.7751068878
 10
394.2094982643
 20
-355.6930715665
 10
394.8332610856
 20
-360.4350922725
 10
395.7037778998
 20
-364.986250821
 10
396.8183144302
 20
-369.3322259182
 10
398.1733619516
 20
-373.4593441121
 10
399.7646530956
 20
-377.3546208589
 10
401.5871881923
 20
-381.0057955067
 10
403.6352247337
 20
-384.4013875688
 10
405.9023247885
 20
-387.5307104167
 10
408.3813497344
 20
-390.3839169069
 10
411.0645076726
 20
-392.9520298044
 10
413.9433481601
 20
-395.2269661166
 10
417.0088201612
 20
-397.2015766431
 10
420.251277316
 20
-398.8696398923
 10
423.6605095502
 20
-400.2259107539
 10
427.2258010278
 20
-401.2661235467
 10
430.9359275161
 20
-401.9869996224
 10
434.7792196065
 20
-402.3862777902
 10
438.7435811534
 20
-402.4626975886
 10
442.8165393238
 20
-402.2160251457
 10
446.9852814759
 20
-401.6470258056
 10
451.23669072
 20
-400.7574983534
 10
455.5573893831
 20
-399.5502377558
 10
459.9337824723
 20
-398.0290404888
 10
464.352101139
 20
-396.1986976975
 10
468.7984441673
 20
-394.064965162
 10
473.2588207791
 20
-391.6345568368
  0
LWPOLYLINE
  5
C6
330
1F
100
AcDbEntity
  8
0
  6
Continuous
 62
     7
370
    25
100
AcDbPolyline
 90
       44
 70
   128
 43
0.0
 10
845.9041015451
 20
-606.7580983897
 10
850.3644781568
 20
-604.0386654963
 10
854.8108211851
 20
-601.038759644
 10
859.2291398519
 20
-597.7678202864
 10
863.6055329411
 20
-594.2361416462
 10
867.9262316041
 20
-590.4548297522
 10
872.1776408483
 20
-586.435784573
 10
876.3463830003
 20
-582.1916566746
 10
880.4193411707
 20
-577.7357917103
 10
884.3837027176
 20
-573.0822174973
 10
888.226994808
 20
-568.245568734
 10
891.9371212963
 20
-563.2410717944
 10
895.5024127739
 20
-558.0844610816
 10
898.9116450082
 20
-552.7919744669
 10
902.1541021629
 20
-547.380249873
 10
905.219574164
 20
-541.8663207106
 10
908.0984146515
 20
-536.2675459213
 10
910.7815725898
 20
-530.6015248092
 10
913.2605975356
 20
-524.8860970405
 10
915.5276975905
 20
-519.1392361852
 10
917.5757341318
 20
-513.3790314647
 10
919.3982692285
 20
-507.6236025845
 10
920.9895603725
 20
-501.8910601902
 10
922.3446078939
 20
-496.1994374295
 10
923.4591444243
 20
-490.566645845
 10
924.3296612385
 20
-485.0104099764
 10
924.9534240598
 20
-479.5482080465
 10
925.3284677913
 20
-474.1972270925
 10
925.4536123212
 20
-468.9743044126
 10
925.3284677913
 20
-463.8958705314
 10
924.9534240598
 20
-458.9779058527
 10
924.3296612385
 20
-454.2358851467
 10
923.4591444243
 20
-449.6847265982
 10
922.3446078939
 20
-445.338751501
 10
920.9895603725
 20
-441.2116333071
 10
919.3982692285
 20
-437.3163565603
 10
917.5757341318
 20
-433.6651819126
 10
915.5276975905
 20
-430.2695898504
 10
913.2605975356
 20
-427.1402670026
 10
910.7815725898
 20
-424.2870605123
 10
908.0984146515
 20
-421.7189476148
 10
905.219574164
 20
-419.4440113026
 10
902.1541021629
 20
-417.4694007761
 10
902.1495292298
 20
-417.4667600199
  0
LWPOLYLINE
  5
C7
330
1F
100
AcDbEntity
  8
0
  6
Continuous
 62
     7
370
    25
100
AcDbPolyline
 90
       15
 70
   128
 43
0.0
 10
789.6586738603
 20
-612.3277589522
 10
792.8965580819
 20
-613.9931814451
 10
796.3057903162
 20
-615.3494523068
 10
799.8710817938
 20
-616.3896650996
 10
803.5812082821
 20
-617.1105411752
 10
807.4245003725
 20
-617.5098193431
 10
811.3888619194
 20
-617.5862391415
 10
815.4618200898
 20
-617.3395666985
 10
819.6305622418
 20
-616.7705673585
 10
823.881971486
 20
-615.8810399063
 10
828.202670149
 20
-614.6737793087
 10
832.5790632382
 20
-613.1525820416
 10
836.997381905
 20
-611.3222392504
 10
841.4437249333
 20
-609.1885067148
 10
845.9041015451
 20
-606.7580983897
  0
LWPOLYLINE
  5
C8
330
1F
100
AcDbEntity
  8
0
  6
Continuous
 62
     7
370
    25
100
AcDbPolyline
 90
      106
 70
   128
 43
0.0
 10
473.2588207791
 20
-380.6929133353
 10
477.4495540371
 20
-378.1288198003
 10
481.6252856513
 20
-375.2842342041
 10
485.771066332
 20
-372.1693440156
 10
489.872057425
 20
-368.7952948978
 10
493.9135779978
 20
-365.1741635249
 10
497.8811598273
 20
-361.3189136713
 10
501.7605981086
 20
-357.2433547705
 10
505.5380094064
 20
-352.9620658748
 10
509.1998698506
 20
-348.4903796891
 10
512.7330691373
 20
-343.8442966433
 10
516.1249605775
 20
-339.0404559996
 10
519.3634058791
 20
-334.0960430806
 10
522.4368067561
 20
-329.0287710203
 10
525.3341602468
 20
-323.8567758265
 10
528.0450982266
 20
-318.5985661929
 10
530.5599216519
 20
-313.2729672288
 10
532.8696163655
 20
-307.899044414
 10
534.9659215851
 20
-302.4960366844
 10
536.8413299033
 20
-297.0832864699
 10
538.4891294345
 20
-291.6801636512
 10
539.9034248882
 20
-286.3060138513
 10
541.0791481059
 20
-280.9800747847
 10
542.0120896711
 20
-275.7214139031
 10
542.6989147144
 20
-270.5488523499
 10
543.1371629136
 20
-265.4809086868
 10
543.3252590301
 20
-260.5357272204
 10
543.2625445195
 20
-255.7310025296
 10
542.9492301161
 20
-251.0839421982
 10
542.3864432479
 20
-246.6111774654
 10
541.5761964271
 20
-242.3287219675
 10
540.5213872494
 20
-238.2519061476
 10
539.2258036629
 20
-234.3953175605
 10
537.6940712842
 20
-230.772769688
 10
535.9316744719
 20
-227.3972289372
 10
533.944929985
 20
-224.2807750933
 10
531.7409448358
 20
-221.4345663347
 10
529.3276057534
 20
-218.8687936042
 10
526.7135528416
 20
-216.5926410623
 10
523.9081532376
 20
-214.614249583
 10
520.9214378913
 20
-212.9407076214
 10
517.7641015655
 20
-211.5780086287
 10
514.4474501524
 20
-210.5310267121
 10
510.983353258
 20
-209.8035075044
 10
507.3842125927
 20
-209.3980620781
 10
503.6629119212
 20
-209.3161350007
 10
499.8327722818
 20
-209.5580241026
 10
495.907504571
 20
-210.1228591799
 10
491.9011621289
 20
-211.0086232828
 10
487.8280827862
 20
-212.2121435845
 10
483.7028506698
 20
-213.7291134312
 10
479.5402310061
 20
-215.5540995603
 10
475.3551256694
 20
-217.6805677619
 10
471.1625158888
 20
-220.1009098698
 10
466.9774105521
 20
-222.8064614375
 10
462.8147908883
 20
-225.7875336723
 10
458.6895587719
 20
-229.0334554462
 10
454.6164794293
 20
-232.5326124543
 10
450.6101369871
 20
-236.272472876
 10
446.6848692764
 20
-240.2396554307
 10
442.8547296369
 20
-244.4199514277
 10
439.1334289654
 20
-248.7984008064
 10
435.5342883001
 20
-253.359325593
 10
432.0701914058
 20
-258.0864059417
 10
428.7535399926
 20
-262.9627120706
 10
425.5962036668
 20
-267.9707939908
 10
422.6094883205
 20
-273.0927240902
 10
419.8040887165
 20
-278.3101610074
 10
417.1900358048
 20
-283.6044347986
 10
414.7766967223
 20
-288.9565895239
 10
412.5727115731
 20
-294.347465371
 10
410.5859670863
 20
-299.7577655736
 10
408.823570274
 20
-305.1681263715
 10
407.2918378953
 20
-310.5591748048
 10
405.9962543088
 20
-315.9116123609
 10
404.9414451311
 20
-321.2062849345
 10
404.1311983102
 20
-326.4242314993
 10
403.5684114421
 20
-331.5467761191
 10
403.2550970386
 20
-336.5555815608
 10
403.192382528
 20
-341.4327148843
 10
403.3804786446
 20
-346.1607251972
 10
403.8187268437
 20
-350.7226782598
 10
404.5055518871
 20
-355.1022484972
 10
405.4384934523
 20
-359.2837579755
 10
406.61421667
 20
-363.2522359093
 10
408.0285121237
 20
-366.9934749358
 10
409.6763116549
 20
-370.4940889118
 10
411.551719973
 20
-373.7415387719
 10
413.6480251926
 20
-376.7242040134
 10
415.9577199062
 20
-379.4314100745
 10
418.4725433315
 20
-381.8534557156
 10
421.1834813113
 20
-383.9816829813
 10
424.0808348021
 20
-385.8084650396
 10
427.154235679
 20
-387.3272639787
 10
430.3926809806
 20
-388.53264754
 10
433.7845724209
 20
-389.4202936853
 10
437.3177717075
 20
-389.9870316661
 10
440.9796321518
 20
-390.2308237761
 10
444.7570434495
 20
-390.1508064203
 10
448.6364817309
 20
-389.7472612219
 10
452.6040635604
 20
-389.0216386018
 10
456.6455841331
 20
-387.9765296451
 10
460.7465752262
 20
-386.6156752322
 10
464.8923559068
 20
-384.9439489327
 10
469.068087521
 20
-382.9673374294
 10
473.2588207791
 20
-380.6929133353
  0
LWPOLYLINE
  5
C9
330
1F
100
AcDbEntity
  8
0
  6
Continuous
 62
     7
370
    25
100
AcDbPolyline
 90
       90
 70
   128
 43
0.0
 10
709.4324901629
 20
-633.7167505923
 10
712.8247494003
 20
-631.6150653563
 10
715.9517561295
 20
-629.380479653
 10
718.7979328095
 20
-627.0241273207
 10
721.3490887938
 20
-624.5577405852
 10
723.5925260274
 20
-621.9936133726
 10
725.5170604488
 20
-619.3445159616
 10
727.1131115525
 20
-616.6236493633
 10
728.3727175355
 20
-613.8445666259
 10
729.2896116881
 20
-611.021113528
 10
729.8592237116
 20
-608.1673578674
 10
730.0787165961
 20
-605.2975134271
 10
729.9469945236
 20
-602.4258806688
 10
729.4647134044
 20
-599.5667646162
 10
728.6342808773
 20
-596.7344109864
 10
727.4598273334
 20
-593.9429286355
 10
725.9472085505
 20
-591.2062241695
 10
724.1039582777
 20
-588.5379319928
 10
721.9392618939
 20
-585.9513473985
 10
719.4638997726
 20
-583.459354336
 10
716.6902097452
 20
-581.0743672454
 10
713.6320044535
 20
-578.8082711804
 10
710.3045194893
 20
-576.6723553739
 10
706.7243378264
 20
-574.677257448
 10
702.9092920271
 20
-572.8329191242
 10
698.8783878504
 20
-571.1485299584
 10
694.6517141965
 20
-569.6324753526
 10
690.2503161724
 20
-568.2923180217
 10
685.6961279198
 20
-567.1347288026
 10
681.0118428826
 20
-566.1654725879
 10
676.2207867073
 20
-565.3893836149
 10
671.3468382176
 20
-564.8103228866
 10
666.4142713642
 20
-564.4311812131
 10
661.4476656622
 20
-564.253842715
 10
656.471763946
 20
-564.2791909067
 10
651.5113538308
 20
-564.507104134
 10
646.5911491749
 20
-564.9364418878
 10
641.7356610048
 20
-565.5650676147
 10
636.9690763434
 20
-566.3898487167
 10
632.3151488909
 20
-567.4066770807
 10
627.7970620483
 20
-568.6104873261
 10
623.4373235497
 20
-569.9952811362
 10
619.257652193
 20
-571.5541591922
 10
615.2788691799
 20
-573.2793534875
 10
611.520804932
 20
-575.1622750392
 10
608.0021733084
 20
-577.1935378388
 10
604.7405041055
 20
-579.3630221504
 10
601.7520561286
 20
-581.6599246929
 10
599.0517075445
 20
-584.0727976077
 10
596.6529143931
 20
-586.5896210708
 10
594.5676279403
 20
-589.1978570872
 10
592.8062387011
 20
-591.8845122185
 10
591.3775211227
 20
-594.6362029721
 10
590.2885914369
 20
-597.4392166289
 10
589.5448760506
 20
-600.2795903177
 10
589.1500759839
 20
-603.1431741241
 10
589.1061668703
 20
-606.0157010414
 10
589.413359444
 20
-608.8828614839
 10
590.0701232477
 20
-611.7303717174
 10
591.0731945346
 20
-614.5440422899
 10
592.4175657325
 20
-617.3098601478
 10
594.0965486632
 20
-620.0140403397
 10
596.1017692748
 20
-622.6431172564
 10
598.4232413984
 20
-625.1839902518
 10
601.0494095534
 20
-627.6239970151
 10
603.9671733141
 20
-629.9509884649
 10
607.1620071642
 20
-632.1533675259
 10
610.6179926012
 20
-634.2201624069
 10
614.3179081923
 20
-636.1410785889
 10
618.2433270389
 20
-637.9065429249
 10
622.3746934974
 20
-639.5077600948
 10
626.69141982
 20
-640.9367562304
 10
631.1720012358
 20
-642.1864088532
 10
635.7941196715
 20
-643.250494586
 10
640.5347445084
 20
-644.1237108224
 10
645.3702577064
 20
-644.8017084217
 10
650.2765697074
 20
-645.2811069153
 10
655.2292406076
 20
-645.5595218792
 10
660.2035934271
 20
-645.635563413
 10
665.1748484533
 20
-645.5088528679
 10
670.1182338759
 20
-645.1800228461
 10
675.0091280328
 20
-644.6507111185
 10
679.8231621432
 20
-643.9235560625
 10
684.5363520159
 20
-643.0021753725
 10
689.1252205394
 20
-641.8911652995
 10
693.566900414
 20
-640.5960565517
 10
697.8392704713
 20
-639.1233055503
 10
701.9210346989
 20
-637.4802427266
 10
705.791870084
 20
-635.6750601662
 10
709.4324901629
 20
-633.7167505923
  0
LWPOLYLINE
  5
CA
330
1F
100
AcDbEntity
  8
0
  6
Continuous
 62
     7
370
    25
100
AcDbPolyline
 90
       95
 70
   128
 43
0.0
 10
716.1500023926
 20
-637.5946878582
 10
719.8020396577
 20
-635.3405602942
 10
723.1851161504
 20
-632.950648676
 10
726.2841291404
 20
-630.4356302584
 10
729.0852258146
 20
-627.8067320214
 10
731.5759017299
 20
-625.075698166
 10
733.7450367037
 20
-622.2547268155
 10
735.5829369609
 20
-619.3564152717
 10
737.0813970369
 20
-616.3937121129
 10
738.2337208512
 20
-613.3798442015
 10
739.0347664881
 20
-610.3282725848
 10
739.4809540999
 20
-607.2526331876
 10
739.5702922478
 20
-604.1666546966
 10
739.3023805369
 20
-601.0841235841
 10
738.678414884
 20
-598.0188050326
 10
737.7011848835
 20
-594.9843927533
 10
736.3750501002
 20
-591.9944375131
 10
734.7059400687
 20
-589.0622893495
 10
732.7013042447
 20
-586.2010504295
 10
730.370094882
 20
-583.4234982551
 10
727.7227314719
 20
-580.7420347206
 10
724.7710289615
 20
-578.1686385917
 10
721.5281733873
 20
-575.714802777
 10
718.0086499299
 20
-573.3914867124
 10
714.2281767294
 20
-571.2090659879
 10
710.2036391964
 20
-569.1772883435
 10
705.9530103275
 20
-567.3052276685
 10
701.4952744792
 20
-565.6012460795
 10
696.8503401105
 20
-564.0729557134
 10
692.0389573004
 20
-562.727177194
 10
687.0826090877
 20
-561.5699255656
 10
682.0034291534
 20
-560.6063688543
 10
676.8241135753
 20
-559.8408075393
 10
671.5677878025
 20
-559.2766646682
 10
666.2579249954
 20
-558.916456964
 10
660.9182459272
 20
-558.7617948253
 10
655.5725951773
 20
-558.8133686404
 10
650.2448542039
 20
-559.0709472659
 10
644.9588043662
 20
-559.533381069
 10
639.7380663386
 20
-560.1986034473
 10
634.6059578651
 20
-561.0636460362
 10
629.5853910262
 20
-562.1246432707
 10
624.6987958478
 20
-563.376858237
 10
619.9679938607
 20
-564.8146948376
 10
615.4141151241
 20
-566.431733528
 10
611.0575033948
 20
-568.2207556467
 10
606.91760648
 20
-570.173764135
 10
603.0129199315
 20
-572.2820403723
 10
599.3608826665
 20
-574.5361679362
 10
595.9778061737
 20
-576.9260795544
 10
592.8787931837
 20
-579.4410979721
 10
590.0776965095
 20
-582.0699962091
 10
587.5870205942
 20
-584.8010300645
 10
585.4178856204
 20
-587.6220014149
 10
583.5799853632
 20
-590.5203129588
 10
582.0815252872
 20
-593.4830161176
 10
580.929201473
 20
-596.4968840289
 10
580.128155836
 20
-599.5484556457
 10
579.6819682242
 20
-602.6240950428
 10
579.5926300763
 20
-605.7100735338
 10
579.8605417872
 20
-608.7926046464
 10
580.4845074402
 20
-611.8579231978
 10
581.4617374406
 20
-614.8923354772
 10
582.787872224
 20
-617.8822907174
 10
584.4569822554
 20
-620.8144388809
 10
586.4616180795
 20
-623.6756778009
 10
588.7928274422
 20
-626.4532299754
 10
591.4401908522
 20
-629.1346935099
 10
594.3918933627
 20
-631.7080896388
 10
597.6347489368
 20
-634.1619254534
 10
601.1542723943
 20
-636.4852415181
 10
604.9347455947
 20
-638.6676622426
 10
608.9592831278
 20
-640.699439887
 10
613.2099119967
 20
-642.571500562
 10
617.6676478449
 20
-644.275482151
 10
622.3125822136
 20
-645.8037725171
 10
627.1239650238
 20
-647.1495510364
 10
632.0803132365
 20
-648.3068026649
 10
637.1594931708
 20
-649.2703593762
 10
642.3388087488
 20
-650.0359206911
 10
647.5951345216
 20
-650.6000635623
 10
652.9049973287
 20
-650.9602712665
 10
658.244676397
 20
-651.1149334051
 10
663.5903271468
 20
-651.0633595901
 10
668.9180681202
 20
-650.8057809646
 10
674.2041179579
 20
-650.3433471615
 10
679.4248559855
 20
-649.6781247832
 10
684.556964459
 20
-648.8130821943
 10
689.577531298
 20
-647.7520849598
 10
694.4641264764
 20
-646.4998699935
 10
699.1949284634
 20
-645.0620333928
 10
703.7488072001
 20
-643.4449947025
 10
708.1054189293
 20
-641.6559725838
 10
712.2453158441
 20
-639.7029640954
 10
716.1500023926
 20
-637.5946878582
  0
ENDSEC
  0
SECTION
  2
OBJECTS
  0
DICTIONARY
  5
C
330
0
100
AcDbDictionary
281
     1
  3
ACAD_GROUP
350
D
  3
ACAD_LAYOUT
350
1A
  3
ACAD_MLINESTYLE
350
17
  3
ACAD_PLOTSETTINGS
350
19
  3
ACAD_PLOTSTYLENAME
350
E
  3
ACAD_SCALELIST
350
47
  0
DICTIONARY
  5
D
102
{ACAD_REACTORS
330
C
102
}
330
C
100
AcDbDictionary
281
     1
  0
DICTIONARY
  5
1A
102
{ACAD_REACTORS
330
C
102
}
330
C
100
AcDbDictionary
281
     1
  3
Layout1
350
1E
  3
Layout2
350
26
  3
Model
350
22
  0
DICTIONARY
  5
17
102
{ACAD_REACTORS
330
C
102
}
330
C
100
AcDbDictionary
281
     1
  3
Standard
350
18
  0
DICTIONARY
  5
19
102
{ACAD_REACTORS
330
C
102
}
330
C
100
AcDbDictionary
281
     1
  0
ACDBDICTIONARYWDFLT
  5
E
102
{ACAD_REACTORS
330
C
102
}
330
C
100
AcDbDictionary
281
     1
  3
Normal
350
F
100
AcDbDictionaryWithDefault
340
F
  0
DICTIONARY
  5
47
102
{ACAD_REACTORS
330
C
102
}
330
C
100
AcDbDictionary
281
     1
  3
A0
350
48
  3
A1
350
49
  3
A2
350
4A
  3
A3
350
4B
  3
A4
350
4C
  3
A5
350
4D
  3
A6
350
4E
  3
A7
350
4F
  3
A8
350
50
  3
A9
350
51
  3
B0
350
52
  3
B1
350
53
  3
B2
350
54
  3
B3
350
55
  3
B4
350
56
  3
B5
350
57
  3
B6
350
58
  3
B7
350
59
  3
B8
350
5A
  3
B9
350
5B
  3
C0
350
5C
  3
C1
350
5D
  3
C2
350
5E
  3
C3
350
5F
  3
C4
350
60
  3
C5
350
61
  3
C6
350
62
  3
C7
350
63
  3
C8
350
64
  3
C9
350
65
  3
D0
350
66
  3
D1
350
67
  3
D2
350
68
  0
LAYOUT
  5
1E
102
{ACAD_REACTORS
330
1A
102
}
330
1A
100
AcDbPlotSettings
  1

  2
none_device
  4

  6

 40
0.0
 41
0.0
 42
0.0
 43
0.0
 44
0.0
 45
0.0
 46
0.0
 47
0.0
 48
0.0
 49
0.0
140
0.0
141
0.0
142
1.0
143
1.0
 70
   688
 72
     1
 73
     0
 74
     5
  7

 75
    16
147
1.0
148
0.0
149
0.0
100
AcDbLayout
  1
Layout1
 70
     1
 71
     1
 10
0.0
 20
0.0
 11
420.0
 21
297.0
 12
0.0
 22
0.0
 32
0.0
 14
1.0000000000E+20
 24
1.0000000000E+20
 34
1.0000000000E+20
 15
-1.0000000000E+20
 25
-1.0000000000E+20
 35
-1.0000000000E+20
146
0.0
 13
0.0
 23
0.0
 33
0.0
 16
1.0
 26
0.0
 36
0.0
 17
0.0
 27
1.0
 37
0.0
 76
     0
330
1B
  0
LAYOUT
  5
26
102
{ACAD_REACTORS
330
1A
102
}
330
1A
100
AcDbPlotSettings
  1

  2
none_device
  4

  6

 40
0.0
 41
0.0
 42
0.0
 43
0.0
 44
0.0
 45
0.0
 46
0.0
 47
0.0
 48
0.0
 49
0.0
140
0.0
141
0.0
142
1.0
143
1.0
 70
   688
 72
     1
 73
     0
 74
     5
  7

 75
    16
147
1.0
148
0.0
149
0.0
100
AcDbLayout
  1
Layout2
 70
     1
 71
     2
 10
0.0
 20
0.0
 11
0.0
 21
0.0
 12
0.0
 22
0.0
 32
0.0
 14
0.0
 24
0.0
 34
0.0
 15
0.0
 25
0.0
 35
0.0
146
0.0
 13
0.0
 23
0.0
 33
0.0
 16
1.0
 26
0.0
 36
0.0
 17
0.0
 27
1.0
 37
0.0
 76
     0
330
23
  0
LAYOUT
  5
22
102
{ACAD_REACTORS
330
1A
102
}
330
1A
100
AcDbPlotSettings
  1

  2
none_device
  4
Letter_(8.50_x_11.00_Inches)
  6

 40
6.35
 41
6.35
 42
6.35000508
 43
6.35000508
 44
215.9
 45
279.4
 46
0.0
 47
0.0
 48
0.0
 49
0.0
140
0.0
141
0.0
142
1.0
143
1.0
 70
  1712
 72
     1
 73
     0
 74
     0
  7

 75
     0
147
1.0
148
0.0
149
0.0
100
AcDbLayout
  1
Model
 70
     1
 71
     0
 10
0.0
 20
0.0
 11
279.4
 21
215.9
 12
0.0
 22
0.0
 32
0.0
 14
0.0
 24
0.0
 34
0.0
 15
279.4
 25
215.9
 35
0.0
146
0.0
 13
0.0
 23
0.0
 33
0.0
 16
1.0
 26
0.0
 36
0.0
 17
0.0
 27
1.0
 37
0.0
 76
     0
330
1F
331
29
  0
MLINESTYLE
  5
18
102
{ACAD_REACTORS
330
17
102
}
330
17
100
AcDbMlineStyle
  2
Standard
 70
     0
  3

 62
   256
 51
90.0
 52
90.0
 71
     2
 49
0.5
 62
   256
  6
BYLAYER
 49
-0.5
 62
   256
  6
BYLAYER
  0
ACDBPLACEHOLDER
  5
F
102
{ACAD_REACTORS
330
E
102
}
330
E
  0
SCALE
  5
48
102
{ACAD_REACTORS
330
47
102
}
330
47
100
AcDbScale
 70
     0
300
1:1
140
1.0
141
1.0
290
     1
  0
SCALE
  5
49
102
{ACAD_REACTORS
330
47
102
}
330
47
100
AcDbScale
 70
     0
300
1:2
140
1.0
141
2.0
290
     0
  0
SCALE
  5
4A
102
{ACAD_REACTORS
330
47
102
}
330
47
100
AcDbScale
 70
     0
300
1:4
140
1.0
141
4.0
290
     0
  0
SCALE
  5
4B
102
{ACAD_REACTORS
330
47
102
}
330
47
100
AcDbScale
 70
     0
300
1:5
140
1.0
141
5.0
290
     0
  0
SCALE
  5
4C
102
{ACAD_REACTORS
330
47
102
}
330
47
100
AcDbScale
 70
     0
300
1:8
140
1.0
141
8.0
290
     0
  0
SCALE
  5
4D
102
{ACAD_REACTORS
330
47
102
}
330
47
100
AcDbScale
 70
     0
300
1:10
140
1.0
141
10.0
290
     0
  0
SCALE
  5
4E
102
{ACAD_REACTORS
330
47
102
}
330
47
100
AcDbScale
 70
     0
300
1:16
140
1.0
141
16.0
290
     0
  0
SCALE
  5
4F
102
{ACAD_REACTORS
330
47
102
}
330
47
100
AcDbScale
 70
     0
300
1:20
140
1.0
141
20.0
290
     0
  0
SCALE
  5
50
102
{ACAD_REACTORS
330
47
102
}
330
47
100
AcDbScale
 70
     0
300
1:30
140
1.0
141
30.0
290
     0
  0
SCALE
  5
51
102
{ACAD_REACTORS
330
47
102
}
330
47
100
AcDbScale
 70
     0
300
1:40
140
1.0
141
40.0
290
     0
  0
SCALE
  5
52
102
{ACAD_REACTORS
330
47
102
}
330
47
100
AcDbScale
 70
     0
300
1:50
140
1.0
141
50.0
290
     0
  0
SCALE
  5
53
102
{ACAD_REACTORS
330
47
102
}
330
47
100
AcDbScale
 70
     0
300
1:100
140
1.0
141
100.0
290
     0
  0
SCALE
  5
54
102
{ACAD_REACTORS
330
47
102
}
330
47
100
AcDbScale
 70
     0
300
2:1
140
2.0
141
1.0
290
     0
  0
SCALE
  5
55
102
{ACAD_REACTORS
330
47
102
}
330
47
100
AcDbScale
 70
     0
300
4:1
140
4.0
141
1.0
290
     0
  0
SCALE
  5
56
102
{ACAD_REACTORS
330
47
102
}
330
47
100
AcDbScale
 70
     0
300
8:1
140
8.0
141
1.0
290
     0
  0
SCALE
  5
57
102
{ACAD_REACTORS
330
47
102
}
330
47
100
AcDbScale
 70
     0
300
10:1
140
10.0
141
1.0
290
     0
  0
SCALE
  5
58
102
{ACAD_REACTORS
330
47
102
}
330
47
100
AcDbScale
 70
     0
300
100:1
140
100.0
141
1.0
290
     0
  0
SCALE
  5
59
102
{ACAD_REACTORS
330
47
102
}
330
47
100
AcDbScale
 70
     0
300
1/128" = 1'-0"
140
0.0078125
141
12.0
290
     0
  0
SCALE
  5
5A
102
{ACAD_REACTORS
330
47
102
}
330
47
100
AcDbScale
 70
     0
300
1/64" = 1'-0"
140
0.015625
141
12.0
290
     0
  0
SCALE
  5
5B
102
{ACAD_REACTORS
330
47
102
}
330
47
100
AcDbScale
 70
     0
300
1/32" = 1'-0"
140
0.03125
141
12.0
290
     0
  0
SCALE
  5
5C
102
{ACAD_REACTORS
330
47
102
}
330
47
100
AcDbScale
 70
     0
300
1/16" = 1'-0"
140
0.0625
141
12.0
290
     0
  0
SCALE
  5
5D
102
{ACAD_REACTORS
330
47
102
}
330
47
100
AcDbScale
 70
     0
300
3/32" = 1'-0"
140
0.09375
141
12.0
290
     0
  0
SCALE
  5
5E
102
{ACAD_REACTORS
330
47
102
}
330
47
100
AcDbScale
 70
     0
300
1/8" = 1'-0"
140
0.125
141
12.0
290
     0
  0
SCALE
  5
5F
102
{ACAD_REACTORS
330
47
102
}
330
47
100
AcDbScale
 70
     0
300
3/16" = 1'-0"
140
0.1875
141
12.0
290
     0
  0
SCALE
  5
60
102
{ACAD_REACTORS
330
47
102
}
330
47
100
AcDbScale
 70
     0
300
1/4" = 1'-0"
140
0.25
141
12.0
290
     0
  0
SCALE
  5
61
102
{ACAD_REACTORS
330
47
102
}
330
47
100
AcDbScale
 70
     0
300
3/8" = 1'-0"
140
0.375
141
12.0
290
     0
  0
SCALE
  5
62
102
{ACAD_REACTORS
330
47
102
}
330
47
100
AcDbScale
 70
     0
300
1/2" = 1'-0"
140
0.5
141
12.0
290
     0
  0
SCALE
  5
63
102
{ACAD_REACTORS
330
47
102
}
330
47
100
AcDbScale
 70
     0
300
3/4" = 1'-0"
140
0.75
141
12.0
290
     0
  0
SCALE
  5
64
102
{ACAD_REACTORS
330
47
102
}
330
47
100
AcDbScale
 70
     0
300
1" = 1'-0"
140
1.0
141
12.0
290
     0
  0
SCALE
  5
65
102
{ACAD_REACTORS
330
47
102
}
330
47
100
AcDbScale
 70
     0
300
1-1/2" = 1'-0"
140
1.5
141
12.0
290
     0
  0
SCALE
  5
66
102
{ACAD_REACTORS
330
47
102
}
330
47
100
AcDbScale
 70
     0
300
3" = 1'-0"
140
3.0
141
12.0
290
     0
  0
SCALE
  5
67
102
{ACAD_REACTORS
330
47
102
}
330
47
100
AcDbScale
 70
     0
300
6" = 1'-0"
140
6.0
141
12.0
290
     0
  0
SCALE
  5
68
102
{ACAD_REACTORS
330
47
102
}
330
47
100
AcDbScale
 70
     0
300
1'-0" = 1'-0"
140
12.0
141
12.0
290
     0
  0
ENDSEC
  0
EOF
